Ляпис Трубецкой - Яблони текст, аккорды скачать .mp3

Ляпис Трубецкой - Яблони текст, аккорды видео клип для мобильного телефона полная версия

Скачать песню

Другие песни Ляпис Трубецкой
Текст песни:

|8---7/8-5------------------5--|7---5/7-3----------------------|
|------------5---5---7---8-----|------------0---0---5---7---8--|
|--5-------5---5---5---5---5--5|--0-------0---0---0---0---0---0|
|------------------------------|-------------------------------|
|0-----------------------------|-------------------------------|
|------------------------------|0------------------------------|

Am H C
|---------5------|-------7|--------8-|-7---5/7/5-3/5/3-2/3/2-0-|
|-----5-------5--|-----7--|------8---|-------------------------|
|---5---5---5---5|---8----|----9-----|---0---------------------|
|----------------|--------|----------|-------------------------|
|-7--------------|-9------|-10-------|-------------------------|
|----------------|--------|----------|-0-----------------------|

Em Am
когда яблони расцветут
H7 Em
я приду к тебе с цветами
Em/G Am
ты посмотришь в окно я уже тут
H7 Em
стою с босыми ногами

Em/G Am
ты скажешь как хорошо
H7 Em
что ты пришел с цветами
Em/G Am
вот только я не пойму
H7 Em
че с твоими ногами

ах это роса
мои замочила сандали
зато твои глаза
блестят как две медали

E Am
когда яблони цветут
D G
всем девчонкам нравится
Em Am
чо бы им цветы дарили
H7 Em
и красивыми и некрасавицам

когда яблони цветут
всем девчонкам хочется
чо бы им цветы дарили
им без этого не можется

когда яблони расцветут
я приду к тебе с цветами
ты посмотришь в окно я уже тут
со стриженными волосами

ты скажешь как хорошо
что ты пришел с цветами
вот только я не пойму
чо с твоими волосами

ах это парикмахер
постриг меня в парикмахерской
зато свою прическу
я нахожу новаторской

когда яблони цветут
всем девчонкам нравится
чо бы им цветы дарили
и красивыми и некрасавицам

когда яблони цветут
всем девчонкам хочется
чо бы им цветы дарили
им без этого не можется

я пропел вам песню
про любовь земную
сейчас еще раз припев
а потом пойду я

когда яблони цветут
всем девчонкам нравится
чо бы им цветы дарили
и красивыми и некрасавицам

когда яблони цветут
всем девчонкам хочется
чо бы им цветы дарили
им без этого не можется

когда яблони цветут
всем девчонкам нравится
чо бы им цветы дарили
и красивыми и некрасавицам

когда яблони цветут
всем девчонкам хочется
чо бы им цветы дарили
им без этого не можется
им без этого не можется



Видео:
Ляпис Трубецкой - Когда яблони цветут-Песни под гитару

Архип Бутов - Городская / золотая рыба (А. Новиков)

Игорь Растеряев - Комбайнеры (F.N. guitar cover)

"Солнце" (Ночные Снайперы)

Ляпис Трубецкой - "Ау"

Ночные снайперы - Бони и Клайд

David Gray Sail Away

ПИЛОТ - 5 пограничных состояний (15-летию ПилОта)

Алексей Бардин - Мы уходим под аккорды...

"Ветер знает", браво, аккорды

Профиль

Последнее аудио