Ляпис Трубецкой - Метелица текст, аккорды скачать .mp3

Ляпис Трубецкой - Метелица текст, аккорды видео клип для мобильного телефона полная версия

Скачать песню

Другие песни Ляпис Трубецкой
Текст песни:

Intro:
1------------------------------- -------------------------------
2-----1-0---1---1-----1-0------- -----3-0---3---3-------1-1---3-
3-------------2----------------- ---1---------1---------2-2---4-
4---2-------------0-3----------- -2---------------------2-2---6-
5-0----------------------------- -----------------0-------------
6------------------------------- -------------------------------
| | | | | | | | | | | | | | | |

1------------------------------- -----------------------8-8---7-
2-----1-0---1---1-----1-0------- -----3-0---3---3-------5-5---5-
3-------------2----------------- ---1---------1---------5-5---4-
4---2-------------0-3----------- -2-----------------------------
5-0----------------------------- -----------------0-------------
6------------------------------- -------------------------------
Am
Мы зашли в дорогое кафе
Dm
Как всегда я был при лаве
E
На тебе блестело колье
Am E
Официант нам подал оливье

Припев:
A Dm
А за окном метель метет
G C
Белая красавица
Am Dm 2 раза
Скоро полночь настает
E A7
А бар не закрывается

Проигрыш:
Am C E (8 раз)

Am
Музыкант играет шлягер
Dm
Вспоминаю нары, лагерь
E
Музыкант играет хит
Am E
А у меня душа болит

Припев

Проигрыш:
Am C E (8 раз)

Solo:

g|----6-4-6/7---7-6-4-0----9-9-7-7/6----11-11-9-9/11-
d|-9-------------------------------------------------

e|--------------------------------------------------------14-14-14-14--15-15-15-15---14-15-16-18-16-18-19
b|-12-14-15-14-12/15---15-14-7---15-15-14-8---17-17-15-14-

Hm
Скоро утро наступает
Em
А тоска не отступает
F#
Где здоровье, где года?
Hm F#
Не вернуть их никогда

Припев:
H Em
А за окном метель метет
A(V) D
Белая красавица
Hm Em
Скоро полночь настает
F# Hm H7
А бар не закрывается

(Скоро утро настает
А бабки не кончаются)

Проигрыш
Hm D F# (2 раза)



Видео:
Как играть В платье белом (Ляпис Трубецкой) на гитаре: аккорды, текст, слова

Валентин Стрыкало Я бью женщин и детей разбор песни

Игорь Растеряев - Комбайнеры (F.N. guitar cover)

"Солнце" (Ночные Снайперы)

Машина времени - Синяя птица (Аккорды на гитаре)

Ляпис Трубецкой - Когда яблони цветут-Песни под гитару

Ляпис Трубецкой - "Ау"

Ночные снайперы - Бони и Клайд

David Gray Sail Away

"Ветер знает", браво, аккорды

Профиль

Последнее аудио